  0
SECTION
  2
HEADER
  9
$ACADVER
  1
AC1009
  9
$INSBASE
 10
63.86250529766766
 20
54.94291442216714
 30
0.0
  9
$EXTMIN
 10
63.86250529766766
 20
54.94291442216714
 30
0.0
  9
$EXTMAX
 10
92.25998125294904
 20
240.231652399811
 30
0.0
  9
$LIMMIN
 10
0.0
 20
0.0
  9
$LIMMAX
 10
420.0
 20
297.0
  9
$ORTHOMODE
 70
     0
  9
$REGENMODE
 70
     0
  9
$FILLMODE
 70
     1
  9
$QTEXTMODE
 70
     0
  9
$MIRRTEXT
 70
     0
  9
$DRAGMODE
 70
     2
  9
$LTSCALE
 40
1.0
  9
$OSMODE
 70
     0
  9
$ATTMODE
 70
     1
  9
$TEXTSIZE
 40
3.5
  9
$TRACEWID
 40
0.1
  9
$TEXTSTYLE
  7
STANDARD
  9
$CLAYER
  8
0
  9
$CELTYPE
  6
BYLAYER
  9
$CECOLOR
 62
   256
  9
$DIMSCALE
 40
1.0
  9
$DIMASZ
 40
2.0
  9
$DIMEXO
 40
1.0
  9
$DIMDLI
 40
8.0
  9
$DIMRND
 40
0.0
  9
$DIMDLE
 40
0.0
  9
$DIMEXE
 40
2.0
  9
$DIMTP
 40
0.1
  9
$DIMTM
 40
0.1
  9
$DIMTXT
 40
3.5
  9
$DIMCEN
 40
2.0
  9
$DIMTSZ
 40
0.0
  9
$DIMTOL
 70
     0
  9
$DIMLIM
 70
     0
  9
$DIMTIH
 70
     0
  9
$DIMTOH
 70
     0
  9
$DIMSE1
 70
     0
  9
$DIMSE2
 70
     0
  9
$DIMTAD
 70
     1
  9
$DIMZIN
 70
     0
  9
$DIMBLK
  1

  9
$DIMASO
 70
     1
  9
$DIMSHO
 70
     0
  9
$DIMPOST
  1

  9
$DIMAPOST
  1

  9
$DIMALT
 70
     0
  9
$DIMALTD
 70
     2
  9
$DIMALTF
 40
25.39999999999999
  9
$DIMLFAC
 40
1.0
  9
$DIMTOFL
 70
     0
  9
$DIMTVP
 40
0.0
  9
$DIMTIX
 70
     0
  9
$DIMSOXD
 70
     0
  9
$DIMSAH
 70
     0
  9
$DIMBLK1
  1

  9
$DIMBLK2
  1

  9
$DIMSTYLE
  2
*UNNAMED
  9
$DIMCLRD
 70
     0
  9
$DIMCLRE
 70
     0
  9
$DIMCLRT
 70
     0
  9
$DIMTFAC
 40
1.0
  9
$DIMGAP
 40
0.09
  9
$LUNITS
 70
     2
  9
$LUPREC
 70
     3
  9
$SKETCHINC
 40
0.1
  9
$FILLETRAD
 40
20.0
  9
$AUNITS
 70
     0
  9
$AUPREC
 70
     1
  9
$MENU
  1

  9
$ELEVATION
 40
0.0
  9
$PELEVATION
 40
0.0
  9
$THICKNESS
 40
0.0
  9
$LIMCHECK
 70
     0
  9
$BLIPMODE
 70
     0
  9
$CHAMFERA
 40
0.0
  9
$CHAMFERB
 40
0.0
  9
$SKPOLY
 70
     1
  9
$TDCREATE
 40
2448544.558868055
  9
$TDUPDATE
 40
2449393.438232291
  9
$TDINDWG
 40
0.0004457176
  9
$TDUSRTIMER
 40
0.0004457176
  9
$USRTIMER
 70
     1
  9
$ANGBASE
 50
0.0
  9
$ANGDIR
 70
     0
  9
$PDMODE
 70
     0
  9
$PDSIZE
 40
0.0
  9
$PLINEWID
 40
0.0
  9
$COORDS
 70
     2
  9
$SPLFRAME
 70
     0
  9
$SPLINETYPE
 70
     6
  9
$SPLINESEGS
 70
     8
  9
$ATTDIA
 70
     1
  9
$ATTREQ
 70
     1
  9
$HANDLING
 70
     0
  9
$HANDSEED
  5
37
  9
$SURFTAB1
 70
     6
  9
$SURFTAB2
 70
     6
  9
$SURFTYPE
 70
     6
  9
$SURFU
 70
     6
  9
$SURFV
 70
     6
  9
$UCSNAME
  2

  9
$UCSORG
 10
0.0
 20
0.0
 30
0.0
  9
$UCSXDIR
 10
1.0
 20
0.0
 30
0.0
  9
$UCSYDIR
 10
0.0
 20
1.0
 30
0.0
  9
$PUCSNAME
  2

  9
$PUCSORG
 10
0.0
 20
0.0
 30
0.0
  9
$PUCSXDIR
 10
1.0
 20
0.0
 30
0.0
  9
$PUCSYDIR
 10
0.0
 20
1.0
 30
0.0
  9
$USERI1
 70
     0
  9
$USERI2
 70
     3
  9
$USERI3
 70
    15
  9
$USERI4
 70
     0
  9
$USERI5
 70
     0
  9
$USERR1
 40
1.0
  9
$USERR2
 40
1.0
  9
$USERR3
 40
0.0
  9
$USERR4
 40
1.0
  9
$USERR5
 40
0.0
  9
$WORLDVIEW
 70
     1
  9
$SHADEDGE
 70
     3
  9
$SHADEDIF
 70
    70
  9
$TILEMODE
 70
     1
  9
$MAXACTVP
 70
    16
  9
$PINSBASE
 10
0.0
 20
0.0
 30
0.0
  9
$PLIMCHECK
 70
     0
  9
$PEXTMIN
 10
1.000000000000000E+20
 20
1.000000000000000E+20
 30
1.000000000000000E+20
  9
$PEXTMAX
 10
-1.000000000000000E+20
 20
-1.000000000000000E+20
 30
-1.000000000000000E+20
  9
$PLIMMIN
 10
0.0
 20
0.0
  9
$PLIMMAX
 10
12.0
 20
9.0
  9
$UNITMODE
 70
     0
  9
$VISRETAIN
 70
     0
  9
$PLINEGEN
 70
     0
  9
$PSLTSCALE
 70
     0
  9
$TREEDEPTH
 70
  3020
  9
$DWGCODEPAGE
  3
undefined
  0
ENDSEC
  0
SECTION
  2
TABLES
  0
TABLE
  2
VPORT
 70
     2
  0
VPORT
  2
*ACTIVE
 70
     0
 10
0.0
 20
0.0
 11
1.0
 21
1.0
 12
191.7787063352459
 22
155.2162076084043
 13
0.0
 23
0.0
 14
1.0
 24
1.0
 15
10.0
 25
10.0
 16
0.0
 26
0.0
 36
1.0
 17
0.0
 27
0.0
 37
0.0
 40
200.5465863724743
 41
1.275675675675675
 42
50.0
 43
0.0
 44
0.0
 50
0.0
 51
0.0
 71
     0
 72
 20000
 73
     1
 74
     0
 75
     0
 76
     0
 77
     0
 78
     0
  0
ENDTAB
  0
TABLE
  2
LTYPE
 70
     3
  0
LTYPE
  2
AUSGEZOGEN
 70
    64
  3
Solid line
 72
    65
 73
     0
 40
0.0
  0
LTYPE
  2
ITEM-STRICHPUNKT
 70
    64
  3
__ . __ . __
 72
    65
 73
     4
 40
3.599999999999999
 49
2.399999999999999
 49
-0.6
 49
0.0
 49
-0.6
  0
LTYPE
  2
ITEM-STRICHPGR
 70
    64
  3
____ . ____ . ____ . ____ . ____ . ____ . ____
 72
    65
 73
     4
 40
15.0
 49
10.0
 49
-2.5
 49
0.0
 49
-2.5
  0
ENDTAB
  0
TABLE
  2
LAYER
 70
     4
  0
LAYER
  2
0
 70
     0
 62
     7
  6
AUSGEZOGEN
  0
LAYER
  2
ITEM_50
 70
    64
 62
     7
  6
AUSGEZOGEN
  0
LAYER
  2
ITEM_STP
 70
    64
 62
     4
  6
ITEM-STRICHPUNKT
  0
LAYER
  2
ITEM_STPG
 70
    64
 62
     4
  6
ITEM-STRICHPGR
  0
ENDTAB
  0
TABLE
  2
STYLE
 70
     1
  0
STYLE
  2
STANDARD
 70
     0
 40
0.0
 41
1.0
 50
0.0
 71
     0
 42
3.5
  3
iso
  4

  0
ENDTAB
  0
TABLE
  2
VIEW
 70
     0
  0
ENDTAB
  0
TABLE
  2
UCS
 70
     0
  0
ENDTAB
  0
TABLE
  2
APPID
 70
     1
  0
APPID
  2
ACAD
 70
    64
  0
ENDTAB
  0
TABLE
  2
DIMSTYLE
 70
     0
  0
ENDTAB
  0
ENDSEC
  0
SECTION
  2
BLOCKS
  0
ENDSEC
  0
SECTION
  2
ENTITIES
  0
LINE
  8
ITEM_50
 10
83.25739569801498
 20
78.14165239980783
 30
0.0
 11
72.86509085260172
 21
78.14165239980785
 31
0.0
  0
LINE
  8
ITEM_50
 10
88.45354812072162
 20
69.14165239980782
 30
0.0
 11
83.25739569801498
 21
78.14165239980783
 31
0.0
  0
LINE
  8
ITEM_50
 10
83.25739569801498
 20
60.14165239980783
 30
0.0
 11
88.45354812072162
 21
69.14165239980782
 31
0.0
  0
LINE
  8
ITEM_50
 10
72.86509085260172
 20
60.14165239980783
 30
0.0
 11
83.25739569801498
 21
60.14165239980783
 31
0.0
  0
LINE
  8
ITEM_50
 10
67.66893842989509
 20
69.14165239980783
 30
0.0
 11
72.86509085260172
 21
60.14165239980783
 31
0.0
  0
LINE
  8
ITEM_50
 10
72.86509085260172
 20
78.14165239980785
 30
0.0
 11
67.66893842989509
 21
69.14165239980783
 31
0.0
  0
CIRCLE
  8
ITEM_50
 10
78.06124327530835
 20
69.14165239980783
 30
0.0
 40
12.0
  0
LINE
  8
ITEM_STP
 10
78.06124327530835
 20
69.14165239980783
 30
0.0
 11
92.25998125294904
 21
69.14165239980783
 31
0.0
  0
LINE
  8
ITEM_STP
 10
78.06124327530835
 20
69.14165239980783
 30
0.0
 11
78.06124327530835
 21
83.34039037744854
 31
0.0
  0
LINE
  8
ITEM_STP
 10
78.06124327530835
 20
69.14165239980783
 30
0.0
 11
63.86250529766766
 21
69.14165239980783
 31
0.0
  0
LINE
  8
ITEM_STP
 10
78.06124327530835
 20
69.14165239980783
 30
0.0
 11
78.06124327530835
 21
54.94291442216714
 31
0.0
  0
LINE
  8
ITEM_50
 10
66.06124327530841
 20
218.1416523998111
 30
0.0
 11
90.06124327530838
 21
218.1416523998111
 31
0.0
  0
LINE
  8
ITEM_50
 10
66.06124327530841
 20
215.6416523998111
 30
0.0
 11
66.06124327530841
 21
218.1416523998111
 31
0.0
  0
LINE
  8
ITEM_50
 10
90.06124327530838
 20
215.6416523998111
 30
0.0
 11
66.06124327530841
 21
215.6416523998111
 31
0.0
  0
LINE
  8
ITEM_50
 10
90.06124327530838
 20
218.1416523998111
 30
0.0
 11
90.06124327530838
 21
215.6416523998111
 31
0.0
  0
LINE
  8
ITEM_50
 10
72.06124327530829
 20
215.6416523998109
 30
0.0
 11
72.06124327530849
 21
100.1416523998109
 31
0.0
  0
LINE
  8
ITEM_50
 10
74.06124327530849
 20
98.14165239981099
 30
0.0
 11
82.06124327530838
 21
98.14165239981099
 31
0.0
  0
LINE
  8
ITEM_50
 10
84.06124327530838
 20
100.1416523998109
 30
0.0
 11
84.06124327530829
 21
215.6416523998109
 31
0.0
  0
LINE
  8
ITEM_50
 10
72.06124327530838
 20
132.1416523998109
 30
0.0
 11
84.06124327530838
 21
132.1416523998109
 31
0.0
  0
LINE
  8
ITEM_50
 10
84.06124327530838
 20
120.1416523998109
 30
0.0
 11
72.06124327530838
 21
120.1416523998109
 31
0.0
  0
LINE
  8
ITEM_50
 10
72.06124327530838
 20
104.1416523998109
 30
0.0
 11
84.06124327530838
 21
104.1416523998109
 31
0.0
  0
ARC
  8
ITEM_50
 10
74.06124327530849
 20
100.1416523998111
 30
0.0
 40
2.0
 50
180.0
 51
270.0
  0
ARC
  8
ITEM_50
 10
82.06124327530838
 20
100.1416523998111
 30
0.0
 40
2.0
 50
270.0
 51
0.0000000000000509
  0
LINE
  8
ITEM_50
 62
     0
 10
72.06124327530838
 20
120.4958439528883
 30
0.0
 11
83.707051722231
 21
132.1416523998109
 31
0.0
  0
LINE
  8
ITEM_50
 62
     0
 10
72.06124327530838
 20
123.3242710776345
 30
0.0
 11
80.8786245974849
 21
132.1416523998109
 31
0.0
  0
LINE
  8
ITEM_50
 62
     0
 10
72.06124327530838
 20
126.1526982023808
 30
0.0
 11
78.05019747273868
 21
132.1416523998109
 31
0.0
  0
LINE
  8
ITEM_50
 62
     0
 10
72.06124327530838
 20
128.981125327127
 30
0.0
 11
75.22177034799247
 21
132.1416523998109
 31
0.0
  0
LINE
  8
ITEM_50
 62
     0
 10
72.06124327530838
 20
131.8095524518732
 30
0.0
 11
72.39334322324626
 21
132.1416523998109
 31
0.0
  0
LINE
  8
ITEM_50
 62
     0
 10
74.53547884697721
 20
120.1416523998109
 30
0.0
 11
84.06124327530838
 21
129.6674168281421
 31
0.0
  0
LINE
  8
ITEM_50
 62
     0
 10
77.36390597172342
 20
120.1416523998109
 30
0.0
 11
84.06124327530838
 21
126.8389897033959
 31
0.0
  0
LINE
  8
ITEM_50
 62
     0
 10
80.19233309646963
 20
120.1416523998109
 30
0.0
 11
84.06124327530838
 21
124.0105625786497
 31
0.0
  0
LINE
  8
ITEM_50
 62
     0
 10
83.02076022121585
 20
120.1416523998109
 30
0.0
 11
84.06124327530838
 21
121.1821354539035
 31
0.0
  0
LINE
  8
ITEM_50
 62
     0
 10
83.20365711555839
 20
120.1416523998109
 30
0.0
 11
72.06124327530849
 21
131.284066240061
 31
0.0
  0
LINE
  8
ITEM_50
 62
     0
 10
80.37522999081218
 20
120.1416523998109
 30
0.0
 11
72.06124327530849
 21
128.4556391153147
 31
0.0
  0
LINE
  8
ITEM_50
 62
     0
 10
77.54680286606597
 20
120.1416523998109
 30
0.0
 11
72.06124327530849
 21
125.6272119905685
 31
0.0
  0
LINE
  8
ITEM_50
 62
     0
 10
74.71837574131987
 20
120.1416523998109
 30
0.0
 11
72.06124327530849
 21
122.7987848658224
 31
0.0
  0
LINE
  8
ITEM_50
 62
     0
 10
84.06124327530838
 20
122.1124933648073
 30
0.0
 11
74.03208424030461
 21
132.1416523998109
 31
0.0
  0
LINE
  8
ITEM_50
 62
     0
 10
84.06124327530838
 20
124.9409204895535
 30
0.0
 11
76.86051136505082
 21
132.1416523998109
 31
0.0
  0
LINE
  8
ITEM_50
 62
     0
 10
84.06124327530838
 20
127.7693476142996
 30
0.0
 11
79.68893848979703
 21
132.1416523998111
 31
0.0
  0
LINE
  8
ITEM_50
 62
     0
 10
84.06124327530838
 20
130.5977747390458
 30
0.0
 11
82.51736561454313
 21
132.1416523998111
 31
0.0
  0
LINE
  8
ITEM_50
 10
88.07624327530837
 20
218.1416523998109
 30
0.0
 11
88.07624327530837
 21
232.4382204802997
 31
0.0
  0
ARC
  8
ITEM_50
 10
78.06124327530841
 20
218.2342969836101
 30
0.0
 40
15.02250621220821
 50
70.52878774236876
 51
109.4712122576312
  0
ARC
  8
ITEM_50
 10
70.54999327530839
 20
229.1789950942664
 30
0.0
 40
4.077808101551862
 50
52.12113593831197
 51
119.4615048853447
  0
LINE
  8
ITEM_50
 10
68.04624327530842
 20
232.4382204802997
 30
0.0
 11
68.04624327530842
 21
218.1416523998109
 31
0.0
  0
LINE
  8
ITEM_50
 10
73.05374327530836
 20
232.3976523998182
 30
0.0
 11
73.05374327530836
 21
218.1416523998109
 31
0.0
  0
LINE
  8
ITEM_50
 10
83.06874327530846
 20
232.3976523998182
 30
0.0
 11
83.06874327530846
 21
218.1416523998109
 31
0.0
  0
LINE
  8
ITEM_50
 10
68.04624327530842
 20
218.1416523998109
 30
0.0
 11
88.07624327530837
 21
218.1416523998109
 31
0.0
  0
ARC
  8
ITEM_50
 10
85.57249327530843
 20
229.1789950942664
 30
0.0
 40
4.077808101551862
 50
60.53849354913612
 51
127.878864061688
  0
ARC
  8
ITEM_50
 10
78.06124327530841
 20
215.882069162452
 30
0.0
 40
19.34958323735907
 50
58.8297899724462
 51
121.1702100275537
  0
LINE
  8
ITEM_STPG
 10
78.06124327530841
 20
240.231652399811
 30
0.0
 11
78.06124327530838
 21
93.14165239981099
 31
0.0
  0
ENDSEC
  0
EOF
